Green Day - Armatage Shanks (var.5) Guitar tab download free or play online

Guitar tab for Armatage Shanks (var.5) by Green Day free download and read or play online: file .txt, 1.63 kb has 213 views and 0 downloads.

Download guitar tab "Armatage Shanks (var.5)" (Green Day)

Green Day Band name
Armatage Shanks Song name
Guitar tabs Tab type
1.63 kb File size
.TXT File type
213 views
0 downloads
 
Are you robot?

Armatage Shanks (var.5) guitar tab read and play online

                    



Artist: Green Day

Song: Armatage Shanks

Album: Insomniac

Bassist: Mike Dirnt

Tuning: 1/2 Step Down (Eb,Ab,Db,Gb)





Intro X3                  THEN...

Gb--------------------I----------------

Db--------------------I----------------

Ab------5h7-7-7-7-7-7-I7-5-4-2------

Eb--------------------I----------------



Verse  x2                  THEN...

Gb----------------------I--------------------------------------------

Db----------------------I--------------------------------------------

Ab-0-0-0-2h4-5-5-5-5----I---------5-5-5-5h7--5h7-7-5h7---------------

Eb----------------------I-2-2-2-2-----------0---0-0---0--------------



Chorus                                                         Chorus End into the Verse

Gb----------------------------------------------------------I---------------

Db----------------------------------------------------------I---------------

Ab--5-5-5-5---------7-7-7-7--------4-5-5-5-5--------7-7-7-7-I----7-5-4------

Eb----------5-5-5-5---------5-5-5-7----------5-5-5-5--------I---------7-----



Bridge                                                                  2nd Ending

Gb--------------------------------------------------------------------I------------------

Db------------------------------------------------------7-6-7---------I---------7-6-7----

Ab--0-0-0-2h4-------------0-0-0-2h4------------5-5-5-5-5-----7-7-7-7-7I5-5-5-5-5-----7---

Eb-----------2-2-2-2-2-------------2-2-2-2-2--------------------------I------------------



Ending

Gb-------------------

Db-------------------

Ab-7-7-7-7-7-7-7-7-7-

Eb-------------------



                    

Comments for guitar tab — Armatage Shanks (var.5) (Green Day)

Other Armatage Shanks (var.5) by Green Day tabs:

Last viewed Green Day tabs: