Green Day - Blood Sex And Booze (var.15) Guitar tab download free or play online

Guitar tab for Blood Sex And Booze (var.15) by Green Day free download and read or play online: file .txt, 2.09 kb has 228 views and 0 downloads.

Download guitar tab "Blood Sex And Booze (var.15)" (Green Day)

Green Day Band name
Blood Sex And Booze Song name
Guitar tabs Tab type
2.09 kb File size
.TXT File type
228 views
0 downloads
 
Are you robot?

Blood Sex And Booze (var.15) guitar tab read and play online

                    ---Greenday
---Blood, Sex, and Booze.
---Freddy Got Fingered Soundtrack

Tabbed by: Shane Smith (shane@vagrantcorp.com)


Verses:

  |       PALM MUTE       |
E -----------------------------
A -----------------------------
G --9----5----9----5-----------
D --9----5----9----5-----------
B --7----3----7----3-----------
E -----------------------------
   x32  x16  x16  x16


Chorus:

E --4---------4----------------
A --5---------5----------------
G --6----9----6----------------
D --6----9----6----7---9-------
B --4----7----4----7---9-------
E --4---------4----5---7-------
   x16  x16  x16  x8


Post-Chorus:

  |   PALM MUTE   |
E -----------------------------
A -----------------------------
G --9----7----6----------------
D --9----7----6--------7----9--
B --7----5----4--------7----9--
E ----------------- ---5----7--
   x8   x8   x8       x4


Lyrics:

Verse 1:
Waiting in a room. All dressed up and bound and gagged,
tied to a chair, its so unfair.  I dont dare to move,
for the things she puts me through is what I need, so
make it bleed.

Chorus:
Im in distress, oh mistress I confess so do it one more time.
These handcuffs are to tight well, you know I will obey, so 
please dont make me beg for blood, sex, and booze.  You give me.

Post-Chorus:
I sit undisturbed, its what I deserve, another lesson to be learned.
From a girl called Kill.

Verse 2:
My head is in the gutter, thank you sir strike up another
mandolin, of discipline.  Throw me to the dogs, let them eat
my flesh down to the wood, it feels so good.

Chorus:
Im in distress, oh mistress I confess so do it one more time.
These handcuffs are to tight well, you know I will obey, so 
please dont make me beg for blood, sex, and booze.  You give me.

Post-Chorus
I sit undisturbed, its what I deserve, another lesson to be learned.
From a girl called Kill.

Woah! Woah!

Chorus:
Im in distress, oh mistress I confess so do it one more time.
These handcuffs are to tight well, you know I will obey, so 
please dont make me beg for blood sex and booze.  You give me!

Woah! Woah!
Woah! Woah!                    

Comments for guitar tab — Blood Sex And Booze (var.15) (Green Day)

Other Blood Sex And Booze (var.15) by Green Day tabs:

Last viewed Green Day tabs: