Green Day - Brain Stew (var.52) Guitar tab download free or play online

Guitar tab for Brain Stew (var.52) by Green Day free download and read or play online: file .txt, 1.49 kb has 359 views and 0 downloads.

Download guitar tab "Brain Stew (var.52)" (Green Day)

Green Day Band name
Brain Stew Song name
Guitar tabs Tab type
1.49 kb File size
.TXT File type
359 views
0 downloads
 
Are you robot?

Brain Stew (var.52) guitar tab read and play online

                    Artist: greenday
Song: brainstew
Tabed by: craig
Any questions email me at: kirmitdafrog_29@hotmail.com

x = dead note 

verse 1
after the first time you play this the first two 5-7-7 are not needed 

E|----------------------------
B|----------------------------
G|----------------------------
D|--7-7--5-5--4-4--3-3-2-2-7-7
A|--7-7--5-5--4-4--3-3-2-2-7-7
E|--5-5--3-3--2-2--1-1-0-0-5-5

Chorus

E|---------------------------------------------------------------------
B|---------------------------------------------------------------------
G|---------------------------------------------------------------------
D|--7-7-x-x-x-x-x-x-x-x-5-5-x-x-x-x-x-x-x-x-4-4-x-x-x-x-x-x-x-x-3-3-2-2
A|--7-7-x-x-x-x-x-x-x-x-5-5-x-x-x-x-x-x-x-x-4-4-x-x-x-x-x-x-x-x-3-3-2-2
E|--5-5-x-x-x-x-x-x-x-x-3-3-x-x-x-x-x-x-x-x-2-2-x-x-x-x-x-x-x-x-1-1-0-0

Verse 2 

E|-------------------------------------------------
B|-------------------------------------------------
G|-------------------------------------------------
D|--5-5-x-x--x-x-5-5-x-x--x-x-4-4-x-x--x-x-3-3-2-2-
A|--5-5-x-x--x-x-5-5-x-x--x-x-4-4-x-x--x-x-3-3-2-2-
E|--7-7-x-x--x-x-3-3-x-x--x-x-2-2-x-x--x-x-1-1-0-0-

Outro

E|---------------------------
B|------0-----0-----0--------
G|---------------------------
D|--7-7---5-5---4-4---3-3-2-2
A|--7-7---5-5---4-4---3-3-2-2
E|--5-5---3-3---2-2---1-1-0-0

Order

Verse 1  X 12
Chorus   X 2
Verse 1  X 4
Chorus   X 2
Verse 2  X 4
Outro    X 6

Visit www.directTABS.com for more free tablature!                    

Comments for guitar tab — Brain Stew (var.52) (Green Day)

Other Brain Stew (var.52) by Green Day tabs:

Last viewed Green Day tabs: