Green Day - Brat (var.4) Guitar tab download free or play online

Guitar tab for Brat (var.4) by Green Day free download and read or play online: file .txt, 1.18 kb has 186 views and 0 downloads.

Download guitar tab "Brat (var.4)" (Green Day)

Green Day Band name
Brat Song name
Guitar tabs Tab type
1.18 kb File size
.TXT File type
186 views
0 downloads
 
Are you robot?

Brat (var.4) guitar tab read and play online

                    





Band: Green Day

Song: Brat

Played in half-step lower, sounds a semitone lower than written here.



Verse (x4)

E|---------------------------------------------------------------|

B|---------------------------------------------------------------|

G|------5-----------5---------7----------------------------------|

D|-5----5----5------5----5----7----------------------------------|

A|-5----3----5------3----5----5----------------------------------|

E|-3---------3-----------3---------------------------------------|



Chorus (x3)

E|---------------------------------------------------------------|

B|---------------------------------------------------------------|

G|-5------------7-----5---------------------(bass riff)-7--7-----|

D|-5----5-------7-----5----5-------3----5---------------7--7-----|

A|-3----5-------5-----3----5-------3----5---------------5--5-----|

E|------3------------------3-------1----3------------------------|



Order:

Verses 1 skip the first three chords

Chorus

Verse 2

Chorus

Bridge that is the verse 

Chorus



If any question or comments please email crazypaintballzer@cox.net. (fv) Thanks



                    

Comments for guitar tab — Brat (var.4) (Green Day)

Other Brat (var.4) by Green Day tabs:

Last viewed Green Day tabs: