Green Day - Governator (var.7) Guitar tab download free or play online

Guitar tab for Governator (var.7) by Green Day free download and read or play online: file .txt, 2.04 kb has 62 views and 0 downloads.

Download guitar tab "Governator (var.7)" (Green Day)

Green Day Band name
Governator Song name
Guitar tabs Tab type
2.04 kb File size
.TXT File type
62 views
0 downloads
 
Are you robot?

Governator (var.7) guitar tab read and play online

                    tabs-database.com[http://www.tabs-database.com.com/]
Artist: Green Day
Title: Governator	
Album: American Idiot Single
Guitarist: Billie Joe

This is my first tab. I\'m pretty sure its close to perfect.

Verse (first two with just bass)

Seems like everything...
e|-----------------------------------
B|-----------------------------------
G|-9-----7------------9-----------7-- 
D|-9-x4--7--x4--9-----9-x4--7-----7-- x2
A|-7-----5------9-x8--7-----7-x4--5--
E|--------------7-----------5--------

Prechorus

I\'ll be back...
e|-------------
B|-------------
G|-9-9---------
D|-9-9--9------ x4
A|-7-7--9-x14--
E|------7------

Chorus

He\'s at it again...
e|----------------------------
B|----------------------------
G|-9-9----7-7-----------7-7---
D|-9-9----7-7----7-7----7-7--- x4
A|-7-7----5-5----7-7----5-5---
E|---------------5-5----------


Verse with no guitar


Prechorus

I\'ll be back...
e|-------------
B|-------------
G|-9-9---------
D|-9-9--9------ x4
A|-7-7--9-x14--
E|------7------

Chorus

He\'s at it again...
e|----------------------------
B|----------------------------
G|-9-9----7-7-----------7-7---
D|-9-9----7-7----7-7----7-7--- x4
A|-7-7----5-5----7-7----5-5---
E|---------------5-5----------

Part 1
e|--------------
B|--------------
G|--------9-9---
D|-9------9-9--- x3
A|-9-x14--7-7---
E|-7------------

e|-------
B|-------
G|-------
D|-9----- 
A|-9-x16-
E|-7-----

Part 2

Walk around I see...
e|--------------------------
B|--------------------------
G|--9-----7-----------------
D|--9-x8--7-x8--9-----7-----
A|--7-----5-----9-x8--7-x8--
E|--------------7-----5-----

And I can\'t comprehend...
e|-----------------------
B|-----------------------
G|--9-----11-------7-----
D|--9-x8--11-x16---7-x8--
A|--7-----9--------5-----
E|-----------------------


Chorus

e|----------------------------
B|----------------------------
G|-9-9----7-7-----------7-7---
D|-9-9----7-7----7-7----7-7--- x8
A|-7-7----5-5----7-7----5-5---
E|---------------5-5----------

End

e|------
B|------
G|--9---
D|--9---
A|--7---
E|------
Added by tabs-database.com and our distinguished partners                    

Comments for guitar tab — Governator (var.7) (Green Day)

Other Governator (var.7) by Green Day tabs:

Last viewed Green Day tabs: