Green Day - Jaded (var.17) Guitar tab download free or play online

Guitar tab for Jaded (var.17) by Green Day free download and read or play online: file .txt, 1.89 kb has 49 views and 0 downloads.

Download guitar tab "Jaded (var.17)" (Green Day)

Green Day Band name
Jaded Song name
Guitar tabs Tab type
1.89 kb File size
.TXT File type
49 views
0 downloads
 
Are you robot?

Jaded (var.17) guitar tab read and play online

                    song: jaded
band: green day
album: insomniac/international superhits
date: 6/8/03
tabber: Irishpunk01 (Des Foley)


this song is extremely fast

main riff
|----------|
|----------|
|--------7-|
|--77-55-7-| x9
|--77-55-5-|
|--55-33---|

|-------------------------------------------------------------|
|-------------------------------------------------------------|
|--------777777777777-------7-------777777777777-99999999999--|
|--77-55-777777777777-77-55-7-77-55-777777777777-99999999999--|
|--77-55-555555555555-77-55-5-77-55-555555555555-77777777777--|
|--55-33--------------55-33---55-33---------------------------|

|----------|
|----------|
|--------7-|
|--77-55-7-| x9
|--77-55-5-|
|--55-33---|

|-------------------------------------------------------------|
|-------------------------------------------------------------|
|--------777777777777-------7-------777777777777-99999999999--|
|--77-55-777777777777-77-55-7-77-55-777777777777-99999999999--|
|--77-55-555555555555-77-55-5-77-55-555555555555-77777777777--|
|--55-33--------------55-33---55-33---------------------------|

|----------|
|----------|
|--------7-|
|--77-55-7-| x7
|--77-55-5-|
|--55-33---|

|-------------------------------------------------------------|
|-------------------------------------------------------------|
|--------777777777777-------7-------777777777777-99999999999--|
|--77-55-777777777777-77-55-7-77-55-777777777777-99999999999--|
|--77-55-555555555555-77-55-5-77-55-555555555555-77777777777--|
|--55-33--------------55-33---55-33---------------------------|

|----------|    |-------------|
|----------|    |-------------|
|--------7-|    |--------7----|
|--77-55-7-| x3 |--77-55-7-7--|
|--77-55-5-|    |--77-55-5-7--|
|--55-33---|    |--55-33---5--|



cool song but very fast and very hard to play and sing at the same time
enjoy!

Visit www.guitaronline.tj for more tabs.                    

Comments for guitar tab — Jaded (var.17) (Green Day)

Other Jaded (var.17) by Green Day tabs:

Last viewed Green Day tabs: