Green Day - Misery (var.8) Bass tab download free or play online

Bass tab for Misery (var.8) by Green Day free download and read or play online: file .txt, 2.26 kb has 30 views and 0 downloads.

Download bass tab "Misery (var.8)" (Green Day)

Green Day Band name
Misery Song name
Bass tabs Tab type
2.26 kb File size
.TXT File type
30 views
0 downloads
 
Are you robot?

Misery (var.8) bass tab read and play online

                    Verse:
G|-----------------------------------------------------| repeat
D|-----------------------------------------------------|
A|1-1-1-1-1-1-1-1-1-1---3-3-1-1-6666-------3-3-1-1-----|
E|-1-1-1-1-1-1-1-1-1-1-1-1---1-1----2222-1-1---1-1-----|

Chorus:
G|-----------------------------------------|
D|-----------------------------------------|
A|-3-3-1-1---3-3-1-1---3-3-1-1-6666------3-|
E|1-1---1-1-1-1---1-1-1-1---1-1----2222-1-1|

Verse:
G|-----------------------------------------------------| repeat
D|-----------------------------------------------------|
A|1-1-1-1-1-1-1-1-1-1---3-3-1-1-6666-------3-3-1-1-----|
E|-1-1-1-1-1-1-1-1-1-1-1-1---1-1----2222-1-1---1-1-----|

Chorus:
G|-----------------------------------------------|
D|-----------------------------------------------|
A|-3-3-1-1---3-3-1-1---3-3-1-1-6666------3-3-1-1-|
E|1-1---1-1-1-1---1-1-1-1---1-1----2222-1-1---1-1|

Bridge 1:
G|------------| 3 times
D|------------|
A|1-1-6666----|
E|-1-1----2222|

Bridge 2:
G|------------------------------| once
D|------------------------------|
A|1-1----------8888-8-6-4-3-1-1-|
E|-1-1-22222222--------------1-1|

Mandolin solo:(same as verse)
G|-----------------------------------------------------| repeat
D|-----------------------------------------------------|
A|1-1-1-1-1-1-1-1-1-1---3-3-1-1-6666-------3-3-1-1-----|
E|-1-1-1-1-1-1-1-1-1-1-1-1---1-1----2222-1-1---1-1-----|

other bit:
G|---------------------------------------|
D|---------------------------------------|
A|1-1-1-1---3-3-1-1-1-1-6666------3-3----|
E|-1-1-1-1-1-1---1-1-1-1----2222-1-1-----|

Chorus:
G|-----------------------------------------------|
D|-----------------------------------------------|
A|-3-3-1-1---3-3-1-1---3-3-1-1-6666------3-3-1-1-|
E|1-1---1-1-1-1---1-1-1-1---1-1----2222-1-1---1-1|

Ending:
G|------------------|
D|------------1-3-|
A|1-1-1-1-1-1-----1|
E|-1-1-1-1-1-------|                    

Comments for bass tab — Misery (var.8) (Green Day)

Other Misery (var.8) by Green Day tabs:

Last viewed Green Day tabs: