Green Day - Waiting (var.59) Guitar tab download free or play online

Guitar tab for Waiting (var.59) by Green Day free download and read or play online: file .txt, 4.49 kb has 42 views and 0 downloads.

Download guitar tab "Waiting (var.59)" (Green Day)

Green Day Band name
Waiting Song name
Guitar tabs Tab type
4.49 kb File size
.TXT File type
42 views
0 downloads
 
Are you robot?

Waiting (var.59) guitar tab read and play online

                    Greenday- Waiting
Tune: 1/2 step down 
TAB BY:  Tony   (lead guitar & vocals of The Skidz)   theskidz@hotmail.com


	A5      D5      B5      Gb      F5      E5        B5
------------------------------------------------------------------------------
------------------------------------------------------------------------------
------------------------------------------------------------------------------
---------------------7----------------------------------------4--------------
-------------7------5-------9-------4-------3------2--------2--------------
-------------5---------------7-------2-------1------0-----------------------


(no distortion)

A5               D5                          B5          D5
I've been waiting a long time for this moment to come
      A5           D5                       B5           D5
I'm destined for anything at all 
(Distorted)
A5               D5                                 B5       D5                              A5         D5                              B5    D5
Downtown lights will be shining on me like a new diamond ring out under the midnight hour 
A5                D5                                    B5      D5                              
well no one can touch me now well and I can't turn my back 
A5                D5                     B5    D5
It's too late ready or not at all
          Gb                 F5                 E5                    B5
 Well I'm so much closer than I have ever known… 
                   D5 A5 D5 (strum each 3 times)
 Wake up! 
A5             D5                 B5           D5
Dawning of a new era calling… don't let it catch you 
 A5        D5                      B5      D5
 Falling ready or not at all 
A5                    D5                            B5          D5
Well so close enough to taste it almost… I can embrace this 
A5               D5                      B5      D5
Feeling… on the tip of my tongue 
         Gb                 F5                 E5                    B5
Well i'm so much closer than I have ever known 
                 /                           			(strum each 3 times)			             
                 D5 A5 D5 A5 D5h   D5 A5 D5 A5 D5h                            D5 A5 D5 A5 D5h    D5 A5 D5 hiE5
Wake up!                                                              Better thank your lucky stars
(SOLO)
--------------------------------------------------------------------------------------------------------------------------------------2------
------------------------------------------------------------------------------------------------------------------------------------4--4-----
-----9/6----4-----6-----7-----6-----4-----9/6-----4-----6-----7-----6-----4-----6-----2----4----6----7-----6-----4-----4-------4/2
----------------------------------------------------------------------------------------------------------------------------------------------
----------------------------------------------------------------------------------------------------------------------------------------------
----------------------------------------------------------------------------------------------------------------------------------------------


        Gb                 F5                 E5                  B5
Well i'm so much closer than I have ever known 
                   /                           			(strum each 3 times)			             
                   D5 A5 D5 A5 D5h   D5 A5 D5 A5 D5h                            D5 A5 D5 A5 D5h    D5 A5 D5 hiE5
 Wake up!                                                                Better thank your lucky stars…
(no distortion)
A5      D5      B5       D5                  A5           D5                          B5        D5
                                                         I've been waiting a lifetime for this moment to come 
       A5          D5                      B5  D5                  
I'm destined for anything at all ...... (pause)
A5                 D5                        B5              D5                  
Dumbstruck color me stupid good luck you're gonna need it
A5               D5                              B5   D5                  
Where I'm going if I get there at all… 
A5      D5      B5       D5                                        A5      D5      B5       D5  (let ring)                     
Wake up!                              Better thank your lucky stars…                    

Comments for guitar tab — Waiting (var.59) (Green Day)

Other Waiting (var.59) by Green Day tabs:

Last viewed Green Day tabs: