Green Day - Scumbag (var.7) Guitar tab download free or play online

Guitar tab for Scumbag (var.7) by Green Day free download and read or play online: file .txt, 1.52 kb has 55 views and 0 downloads.

Download guitar tab "Scumbag (var.7)" (Green Day)

Green Day Band name
Scumbag Song name
Guitar tabs Tab type
1.52 kb File size
.TXT File type
55 views
0 downloads
 
Are you robot?

Scumbag (var.7) guitar tab read and play online

                    Band: Green Day
Song: Scumbag
Played in normal tuning

Verse x2   
E|---------------------------------------------------------------|
B|---------------------------------------------------------------|
G|-------4----------4--------------------------------------------|
D|---4---4------4---4------4---2---------------------------------|
A|---4---2------4---2------4---2---------------------------------|
E|-0-2-0------0-2-0------0-2-0-0---------------------------------|

Chorus
E|---------------------------------------------------------------|
B|---------------------------------------------------------------|
G|------------------4--------------------------------------------|
D|-------6----------4----6----4----------------------------------|
A|---4---6------4---2----6----4----------------------------------|
E|-0-2-0-4----0-2-0------4----2----------------------------------|

Bridge x2	                             |       (x2)      |
E|---------------------------------------------------------------|
B|-------------------------------------7-7-----------------------|
G|-8-8-6-8--8-6-8-6-----8-8-6-8--8-6-8-------/999988886666-------|
D|------------------9-------------------------------------9999---|
A|---------------------------------------------------------------|
E|---------------------------------------------------------------|

Order:
Verse 
Chorus 
Verse 
Chorus 
Bridge
Chorus 

If any questions or comments please email crazypaintballzer@cox.net. (fv).

Visit www.directTABS.com for more free tablature!                    

Comments for guitar tab — Scumbag (var.7) (Green Day)

Other Scumbag (var.7) by Green Day tabs:

Last viewed Green Day tabs: